White Rabbit

5. dubna 2011 v 20:25 |  Jefferson Airplane - písničky, akordy a texty

Pouze tabulatury pro kytaristy -


INTRO

Bass (arr. pro kytaru)

e|--------------------------------------|

b|--------------------------------------|

g|--------------------------------------|

d|--------------------------------------|

a|--------------------------------------|

E|2-2-222-1s2-2-222-2s3-3-333-2/3-3-333-|



e|--------------------------------------------------------------------------|

b|-----------------7h8p7----------------------------------------------------|

g|--------------8/9-----9-7\6-4\2-3-----------------------------------------|

d|---------------------------------4-4h5p4-------4-5-4----------------------|

a|-9-----9h10/12--------------------------5-4-4-5-----5-4-2/4-5-4-2-4-2-4p2-|

E|---9h10-------------------------------------------------------------------|



e|--------|

b|--------|

g|--------|

d|--------|

a|-2-1----|

E|----3-2-|



VERSE

e|-2-2-222--2-2-222--3-3-333--3-3-333-|

b|-2-2-222--2-2-222--3-3-333--3-3-333-|

g|-3-3-333--3-3-333--4-4-444--4-4-444-| x2

d|-4-4-444--4-4-444--5-5-555--5-5-555-|

a|-4-4-444--4-4-444--5-5-555--5-5-555-|

E|-2-2-222--2-2-222--3-3-333--3-3-333-|



CHORUS

e|-5-555555-8--10-5------------------|

b|-5-555555-8--10-5------------------|

g|-6-666666-9--11-6--11-11-1-11-11-1-|

d|-7-777777-10-12-7--22-22-2-22-22-2-|

a|-7-777777-10-12-7--22-22-2-22-22-2-|

e|-5-555555-8--10-5------------------|



VERSE 2

e|-2-2-222--2-2-222--3-3-333--3-3-333-|

b|-2-2-222--2-2-222--3-3-333--3-3-333-|

g|-3-3-333--3-3-333--4-4-444--4-4-444-| x2

d|-4-4-444--4-4-444--5-5-555--5-5-555-|

a|-4-4-444--4-4-444--5-5-555--5-5-555-|

E|-2-2-222--2-2-222--3-3-333--3-3-333-|





CHORUS

e|-5-555555-8--10-5------------------|

b|-5-555555-8--10-5------------------|

g|-6-666666-9--11-6--11-11-1-11-11-1-|

d|-7-777777-10-12-7--22-22-2-22-22-2-|

a|-7-777777-10-12-7--22-22-2-22-22-2-|

e|-5-555555-8--10-5------------------|



VERSE 3

e|-2-2-2-2--3-3-3-3--------------2----------------------------|

b|-2-2-2-2------------2-222222-1-3-2--2-2-2-2---------2-2-2-2-|

g|-3-3-3-3---------x2-2-222222---2-2--2-2-2-2-1-1-1-1-2-2-2-2-|

d|-4-4-4-4------------2-222222-2---2--2-2-2-2-2-2-2-2-2-2-2-2-|

a|----------2-2-2-2------------3--------------2-2-2-2---------|

E|----------3-3-3-3-------------------------------------------|



OUTRO

e|-----

b|-----

g|-1--2

d|-2--2

a|-2--2

E|-----

 

Buď první, kdo ohodnotí tento článek.

Nový komentář

Přihlásit se
  Ještě nemáte vlastní web? Můžete si jej zdarma založit na Blog.cz.
 

Aktuální články

Reklama